ISO-10303-21;
HEADER;
FILE_DESCRIPTION (( 'STEP AP214' ),
    '1' );
FILE_NAME ('am-3947a-188 375H x 188IN Spacer.STEP',
    '2025-02-06T16:32:48',
    ( '' ),
    ( '' ),
    'SwSTEP 2.0',
    'SolidWorks 2024',
    '' );
FILE_SCHEMA (( 'AUTOMOTIVE_DESIGN' ));
ENDSEC;

DATA;
#1 = DIRECTION ( 'NONE',  ( 0.5000000000000001110, -0.8660254037844385966, 0.000000000000000000 ) ) ;
#2 = ORIENTED_EDGE ( 'NONE', *, *, #274, .T. ) ;
#3 = CLOSED_SHELL ( 'NONE', ( #179, #288, #43, #27, #90, #49, #53, #222, #237, #155 ) ) ;
#4 = VERTEX_POINT ( 'NONE', #264 ) ;
#5 = EDGE_CURVE ( 'NONE', #286, #132, #9, .T. ) ;
#6 = VERTEX_POINT ( 'NONE', #290 ) ;
#7 = CARTESIAN_POINT ( 'NONE',  ( -0.2170837012152992962, -6.822844948385385685E-21, 0.1875000000000000278 ) ) ;
#8 = ORIENTED_EDGE ( 'NONE', *, *, #300, .T. ) ;
#9 = CIRCLE ( 'NONE', #144, 0.3125000000000000000 ) ;
#10 = CARTESIAN_POINT ( 'NONE',  ( 0.1085418506076496203, -0.1879999999999999727, 0.1875000000000000278 ) ) ;
#11 = PRODUCT_DEFINITION ( 'UNKNOWN', '', #73, #13 ) ;
#12 = FACE_OUTER_BOUND ( 'NONE', #99, .T. ) ;
#13 = PRODUCT_DEFINITION_CONTEXT ( 'detailed design', #306, 'design' ) ;
#14 = DIRECTION ( 'NONE',  ( 0.5000000000000001110, 0.8660254037844385966, 0.000000000000000000 ) ) ;
#15 = CARTESIAN_POINT ( 'NONE',  ( 0.1085418506076496203, -0.1879999999999999727, 0.1875000000000000278 ) ) ;
#16 = AXIS2_PLACEMENT_3D ( 'NONE', #92, #66, #67 ) ;
#17 = UNCERTAINTY_MEASURE_WITH_UNIT (LENGTH_MEASURE( 1.000000000000000082E-05 ), #84, 'distance_accuracy_value', 'NONE');
#18 = APPLICATION_CONTEXT ( 'automotive_design' ) ;
#19 = CARTESIAN_POINT ( 'NONE',  ( 0.2170837012152992962, -8.629126648930641522E-21, 0.1875000000000000278 ) ) ;
#20 = EDGE_CURVE ( 'NONE', #132, #103, #162, .T. ) ;
#21 = LINE ( 'NONE', #119, #314 ) ;
#22 = CARTESIAN_POINT ( 'NONE',  ( 0.1085418506076495232, 0.1880000000000000282, 0.1875000000000000278 ) ) ;
#23 = CIRCLE ( 'NONE', #277, 0.3125000000000000000 ) ;
#24 = LINE ( 'NONE', #7, #208 ) ;
#25 = SURFACE_STYLE_USAGE ( .BOTH. , #258 ) ;
#26 = ORIENTED_EDGE ( 'NONE', *, *, #269, .F. ) ;
#27 = ADVANCED_FACE ( 'NONE', ( #12 ), #115, .T. ) ;
#28 = AXIS2_PLACEMENT_3D ( 'NONE', #213, #187, #136 ) ;
#29 =( LENGTH_UNIT ( ) NAMED_UNIT ( * ) SI_UNIT ( $, .METRE. ) );
#30 = ORIENTED_EDGE ( 'NONE', *, *, #269, .T. ) ;
#31 = DIRECTION ( 'NONE',  ( 0.000000000000000000, 0.000000000000000000, 1.000000000000000000 ) ) ;
#32 = ORIENTED_EDGE ( 'NONE', *, *, #252, .F. ) ;
#33 = ORIENTED_EDGE ( 'NONE', *, *, #150, .T. ) ;
#34 = ORIENTED_EDGE ( 'NONE', *, *, #130, .T. ) ;
#35 = ORIENTED_EDGE ( 'NONE', *, *, #252, .T. ) ;
#36 = EDGE_CURVE ( 'NONE', #6, #305, #240, .T. ) ;
#37 = CARTESIAN_POINT ( 'NONE',  ( 0.000000000000000000, 0.000000000000000000, 0.000000000000000000 ) ) ;
#38 = DIRECTION ( 'NONE',  ( 0.000000000000000000, 0.000000000000000000, 1.000000000000000000 ) ) ;
#39 = VECTOR ( 'NONE', #96, 39.37007874015748143 ) ;
#40 = CARTESIAN_POINT ( 'NONE',  ( 0.000000000000000000, 0.000000000000000000, 0.000000000000000000 ) ) ;
#41 = LINE ( 'NONE', #169, #197 ) ;
#42 = DIRECTION ( 'NONE',  ( -1.000000000000000000, 0.000000000000000000, 0.000000000000000000 ) ) ;
#43 = ADVANCED_FACE ( 'NONE', ( #218, #316 ), #268, .F. ) ;
#44 = CARTESIAN_POINT ( 'NONE',  ( 0.3125000000000000000, 3.827021247335477694E-17, 0.000000000000000000 ) ) ;
#45 = DIRECTION ( 'NONE',  ( 0.5000000000000004441, -0.8660254037844383745, 0.000000000000000000 ) ) ;
#46 = LINE ( 'NONE', #122, #39 ) ;
#47 = ORIENTED_EDGE ( 'NONE', *, *, #215, .T. ) ;
#48 = CARTESIAN_POINT ( 'NONE',  ( -0.1085418506076496065, -0.1879999999999999727, 0.1875000000000000278 ) ) ;
#49 = ADVANCED_FACE ( 'NONE', ( #292 ), #319, .T. ) ;
#50 = DIRECTION ( 'NONE',  ( -1.000000000000000000, 0.000000000000000000, 0.000000000000000000 ) ) ;
#51 = DIRECTION ( 'NONE',  ( -0.5000000000000001110, -0.8660254037844385966, 0.000000000000000000 ) ) ;
#52 = VERTEX_POINT ( 'NONE', #71 ) ;
#53 = ADVANCED_FACE ( 'NONE', ( #118 ), #93, .T. ) ;
#54 = ORIENTED_EDGE ( 'NONE', *, *, #194, .F. ) ;
#55 =( NAMED_UNIT ( * ) SI_UNIT ( $, .STERADIAN. ) SOLID_ANGLE_UNIT ( ) );
#56 = VECTOR ( 'NONE', #14, 39.37007874015748143 ) ;
#57 = ORIENTED_EDGE ( 'NONE', *, *, #65, .T. ) ;
#58 = APPLICATION_PROTOCOL_DEFINITION ( 'draft international standard', 'automotive_design', 1998, #306 ) ;
#59 = ORIENTED_EDGE ( 'NONE', *, *, #36, .F. ) ;
#60 = EDGE_CURVE ( 'NONE', #302, #324, #91, .T. ) ;
#61 = CARTESIAN_POINT ( 'NONE',  ( 0.000000000000000000, 0.000000000000000000, 0.1875000000000000278 ) ) ;
#62 = CARTESIAN_POINT ( 'NONE',  ( 0.3125000000000000000, 3.827021247335477694E-17, 0.1875000000000000278 ) ) ;
#63 = VECTOR ( 'NONE', #111, 39.37007874015748143 ) ;
#64 = DIRECTION ( 'NONE',  ( 0.000000000000000000, -0.000000000000000000, -1.000000000000000000 ) ) ;
#65 = EDGE_CURVE ( 'NONE', #207, #324, #171, .T. ) ;
#66 = DIRECTION ( 'NONE',  ( -0.8660254037844385966, 0.5000000000000002220, 0.000000000000000000 ) ) ;
#67 = DIRECTION ( 'NONE',  ( -0.5000000000000002220, -0.8660254037844385966, 0.000000000000000000 ) ) ;
#68 = VECTOR ( 'NONE', #172, 39.37007874015748143 ) ;
#69 = DIRECTION ( 'NONE',  ( 1.000000000000000000, 0.000000000000000000, 0.000000000000000000 ) ) ;
#70 = EDGE_CURVE ( 'NONE', #105, #315, #294, .T. ) ;
#71 = CARTESIAN_POINT ( 'NONE',  ( -0.1085418506076496065, 0.1880000000000000282, 0.1875000000000000278 ) ) ;
#72 = ORIENTED_EDGE ( 'NONE', *, *, #325, .T. ) ;
#73 = PRODUCT_DEFINITION_FORMATION_WITH_SPECIFIED_SOURCE ( 'ANY', '', #230, .NOT_KNOWN. ) ;
#74 =( CONVERSION_BASED_UNIT ( 'INCH', #123 ) LENGTH_UNIT ( ) NAMED_UNIT ( #303 ) );
#75 = EDGE_LOOP ( 'NONE', ( #33, #284, #88, #8, #34, #57 ) ) ;
#76 = PRODUCT_DEFINITION_SHAPE ( 'NONE', 'NONE',  #11 ) ;
#77 = PLANE ( 'NONE',  #227 ) ;
#78 = EDGE_LOOP ( 'NONE', ( #164, #257, #109, #289 ) ) ;
#79 = AXIS2_PLACEMENT_3D ( 'NONE', #332, #149, #125 ) ;
#80 = CARTESIAN_POINT ( 'NONE',  ( 0.000000000000000000, 0.000000000000000000, 0.1875000000000000278 ) ) ;
#81 = EDGE_LOOP ( 'NONE', ( #32, #26 ) ) ;
#82 = VERTEX_POINT ( 'NONE', #320 ) ;
#83 = ORIENTED_EDGE ( 'NONE', *, *, #295, .F. ) ;
#84 =( CONVERSION_BASED_UNIT ( 'INCH', #135 ) LENGTH_UNIT ( ) NAMED_UNIT ( #173 ) );
#85 = VECTOR ( 'NONE', #279, 39.37007874015748143 ) ;
#86 = ORIENTED_EDGE ( 'NONE', *, *, #5, .F. ) ;
#87 = ORIENTED_EDGE ( 'NONE', *, *, #20, .F. ) ;
#88 = ORIENTED_EDGE ( 'NONE', *, *, #199, .T. ) ;
#89 = CARTESIAN_POINT ( 'NONE',  ( 0.1085418506076495232, 0.1880000000000000282, 0.000000000000000000 ) ) ;
#90 = ADVANCED_FACE ( 'NONE', ( #270 ), #250, .T. ) ;
#91 = LINE ( 'NONE', #273, #128 ) ;
#92 = CARTESIAN_POINT ( 'NONE',  ( 0.1085418506076496203, -0.1879999999999999727, 0.1875000000000000278 ) ) ;
#93 = PLANE ( 'NONE',  #191 ) ;
#94 = MECHANICAL_DESIGN_GEOMETRIC_PRESENTATION_REPRESENTATION (  '', ( #148 ), #181 ) ;
#95 = CARTESIAN_POINT ( 'NONE',  ( 0.2170837012152992962, -8.629126648930641522E-21, 0.1875000000000000278 ) ) ;
#96 = DIRECTION ( 'NONE',  ( -0.000000000000000000, -0.000000000000000000, -1.000000000000000000 ) ) ;
#97 = EDGE_LOOP ( 'NONE', ( #190, #283, #331, #175 ) ) ;
#98 = CARTESIAN_POINT ( 'NONE',  ( 0.000000000000000000, 0.000000000000000000, 0.000000000000000000 ) ) ;
#99 = EDGE_LOOP ( 'NONE', ( #87, #86, #201, #35 ) ) ;
#100 = VECTOR ( 'NONE', #192, 39.37007874015748143 ) ;
#101 = EDGE_CURVE ( 'NONE', #286, #108, #41, .T. ) ;
#102 = CARTESIAN_POINT ( 'NONE',  ( -0.3125000000000000000, 0.000000000000000000, 0.1875000000000000278 ) ) ;
#103 = VERTEX_POINT ( 'NONE', #44 ) ;
#104 = CARTESIAN_POINT ( 'NONE',  ( -0.2170837012152992962, -6.822844948385385685E-21, 0.1875000000000000278 ) ) ;
#105 = VERTEX_POINT ( 'NONE', #198 ) ;
#106 = DIRECTION ( 'NONE',  ( 0.000000000000000000, 0.000000000000000000, 1.000000000000000000 ) ) ;
#107 = VERTEX_POINT ( 'NONE', #145 ) ;
#108 = VERTEX_POINT ( 'NONE', #251 ) ;
#109 = ORIENTED_EDGE ( 'NONE', *, *, #211, .T. ) ;
#110 = EDGE_LOOP ( 'NONE', ( #234, #278, #113, #262 ) ) ;
#111 = DIRECTION ( 'NONE',  ( -0.5000000000000001110, -0.8660254037844385966, 0.000000000000000000 ) ) ;
#112 = AXIS2_PLACEMENT_3D ( 'NONE', #104, #200, #151 ) ;
#113 = ORIENTED_EDGE ( 'NONE', *, *, #124, .T. ) ;
#114 = DIRECTION ( 'NONE',  ( -0.000000000000000000, -0.000000000000000000, -1.000000000000000000 ) ) ;
#115 = CYLINDRICAL_SURFACE ( 'NONE', #28, 0.3125000000000000000 ) ;
#116 = DIRECTION ( 'NONE',  ( 0.5000000000000001110, 0.8660254037844385966, 0.000000000000000000 ) ) ;
#117 = CARTESIAN_POINT ( 'NONE',  ( 0.1085418506076496203, -0.1879999999999999727, 0.000000000000000000 ) ) ;
#118 = FACE_OUTER_BOUND ( 'NONE', #159, .T. ) ;
#119 = CARTESIAN_POINT ( 'NONE',  ( -0.1085418506076496065, -0.1879999999999999727, 0.1875000000000000278 ) ) ;
#120 = DIRECTION ( 'NONE',  ( -1.000000000000000000, 0.000000000000000000, 0.000000000000000000 ) ) ;
#121 = AXIS2_PLACEMENT_3D ( 'NONE', #98, #106, #180 ) ;
#122 = CARTESIAN_POINT ( 'NONE',  ( -0.1085418506076496065, -0.1879999999999999727, 0.1875000000000000278 ) ) ;
#123 = LENGTH_MEASURE_WITH_UNIT ( LENGTH_MEASURE( 0.02539999999999999897 ), #29 );
#124 = EDGE_CURVE ( 'NONE', #212, #302, #21, .T. ) ;
#125 = DIRECTION ( 'NONE',  ( 1.000000000000000000, 0.000000000000000000, 0.000000000000000000 ) ) ;
#126 = ORIENTED_EDGE ( 'NONE', *, *, #291, .F. ) ;
#127 = ADVANCED_BREP_SHAPE_REPRESENTATION ( 'am-3947a-188 375H x 188IN Spacer', ( #249, #263 ), #220 ) ;
#128 = VECTOR ( 'NONE', #321, 39.37007874015748143 ) ;
#129 = CARTESIAN_POINT ( 'NONE',  ( -0.1085418506076496065, 0.1880000000000000282, 0.1875000000000000278 ) ) ;
#130 = EDGE_CURVE ( 'NONE', #107, #207, #168, .T. ) ;
#131 = LINE ( 'NONE', #129, #165 ) ;
#132 = VERTEX_POINT ( 'NONE', #247 ) ;
#133 = SHAPE_DEFINITION_REPRESENTATION ( #76, #127 ) ;
#134 = EDGE_LOOP ( 'NONE', ( #280, #236 ) ) ;
#135 = LENGTH_MEASURE_WITH_UNIT ( LENGTH_MEASURE( 0.02539999999999999897 ), #244 );
#136 = DIRECTION ( 'NONE',  ( -1.000000000000000000, 0.000000000000000000, 0.000000000000000000 ) ) ;
#137 = ORIENTED_EDGE ( 'NONE', *, *, #189, .F. ) ;
#138 = DIRECTION ( 'NONE',  ( 1.000000000000000000, 0.000000000000000000, 0.000000000000000000 ) ) ;
#139 = EDGE_LOOP ( 'NONE', ( #265, #54, #333, #72 ) ) ;
#140 = EDGE_CURVE ( 'NONE', #302, #6, #276, .T. ) ;
#141 = LINE ( 'NONE', #117, #328 ) ;
#142 = DIRECTION ( 'NONE',  ( -0.000000000000000000, -0.000000000000000000, -1.000000000000000000 ) ) ;
#143 = CARTESIAN_POINT ( 'NONE',  ( 0.2170837012152992962, -8.629126648930641522E-21, 0.000000000000000000 ) ) ;
#144 = AXIS2_PLACEMENT_3D ( 'NONE', #61, #38, #311 ) ;
#145 = CARTESIAN_POINT ( 'NONE',  ( -0.2170837012152992962, -6.822844948385385685E-21, 0.000000000000000000 ) ) ;
#146 = DIRECTION ( 'NONE',  ( 0.000000000000000000, -0.000000000000000000, 1.000000000000000000 ) ) ;
#147 = DIRECTION ( 'NONE',  ( 0.000000000000000000, 0.000000000000000000, 1.000000000000000000 ) ) ;
#148 = STYLED_ITEM ( 'NONE', ( #330 ), #249 ) ;
#149 = DIRECTION ( 'NONE',  ( 0.000000000000000000, 0.000000000000000000, 1.000000000000000000 ) ) ;
#150 = EDGE_CURVE ( 'NONE', #324, #105, #141, .T. ) ;
#151 = DIRECTION ( 'NONE',  ( -0.5000000000000002220, 0.8660254037844385966, 0.000000000000000000 ) ) ;
#152 = EDGE_LOOP ( 'NONE', ( #59, #205, #313, #83, #185, #137 ) ) ;
#153 = CARTESIAN_POINT ( 'NONE',  ( -0.1085418506076496065, 0.1880000000000000282, 0.1875000000000000278 ) ) ;
#154 = COLOUR_RGB ( '',0.7921568627450980005, 0.8196078431372548767, 0.9333333333333333481 ) ;
#155 = ADVANCED_FACE ( 'NONE', ( #317 ), #271, .T. ) ;
#156 = CARTESIAN_POINT ( 'NONE',  ( -0.1085418506076496065, 0.1880000000000000282, 0.1875000000000000278 ) ) ;
#157 = CARTESIAN_POINT ( 'NONE',  ( 0.1085418506076495232, 0.1880000000000000282, 0.000000000000000000 ) ) ;
#158 = CARTESIAN_POINT ( 'NONE',  ( 0.1085418506076496203, -0.1879999999999999727, 0.000000000000000000 ) ) ;
#159 = EDGE_LOOP ( 'NONE', ( #161, #182, #239, #2 ) ) ;
#160 = LINE ( 'NONE', #309, #63 ) ;
#161 = ORIENTED_EDGE ( 'NONE', *, *, #199, .F. ) ;
#162 = LINE ( 'NONE', #62, #272 ) ;
#163 = LINE ( 'NONE', #261, #255 ) ;
#164 = ORIENTED_EDGE ( 'NONE', *, *, #300, .F. ) ;
#165 = VECTOR ( 'NONE', #51, 39.37007874015748143 ) ;
#166 = CARTESIAN_POINT ( 'NONE',  ( 0.2170837012152992962, -8.629126648930641522E-21, 0.1875000000000000278 ) ) ;
#167 = CARTESIAN_POINT ( 'NONE',  ( -0.1085418506076496065, -0.1879999999999999727, 0.000000000000000000 ) ) ;
#168 = LINE ( 'NONE', #298, #100 ) ;
#169 = CARTESIAN_POINT ( 'NONE',  ( -0.3125000000000000000, 0.000000000000000000, 0.1875000000000000278 ) ) ;
#170 = AXIS2_PLACEMENT_3D ( 'NONE', #221, #275, #42 ) ;
#171 = LINE ( 'NONE', #167, #259 ) ;
#172 = DIRECTION ( 'NONE',  ( -0.000000000000000000, -0.000000000000000000, -1.000000000000000000 ) ) ;
#173 = DIMENSIONAL_EXPONENTS ( 1.000000000000000000, 0.000000000000000000, 0.000000000000000000, 0.000000000000000000, 0.000000000000000000, 0.000000000000000000, 0.000000000000000000 ) ;
#174 = CARTESIAN_POINT ( 'NONE',  ( -0.2170837012152992962, -6.822844948385385685E-21, 0.1875000000000000278 ) ) ;
#175 = ORIENTED_EDGE ( 'NONE', *, *, #194, .T. ) ;
#176 = AXIS2_PLACEMENT_3D ( 'NONE', #226, #196, #146 ) ;
#177 = FILL_AREA_STYLE ('',( #256 ) ) ;
#178 = CARTESIAN_POINT ( 'NONE',  ( -0.1085418506076496065, -0.1879999999999999727, 0.000000000000000000 ) ) ;
#179 = ADVANCED_FACE ( 'NONE', ( #297 ), #246, .T. ) ;
#180 = DIRECTION ( 'NONE',  ( 1.000000000000000000, 0.000000000000000000, 0.000000000000000000 ) ) ;
#181 =( GEOMETRIC_REPRESENTATION_CONTEXT ( 3 ) GLOBAL_UNCERTAINTY_ASSIGNED_CONTEXT ( ( #225 ) ) GLOBAL_UNIT_ASSIGNED_CONTEXT ( ( #74, #233, #281 ) ) REPRESENTATION_CONTEXT ( 'NONE', 'WORKASPACE' ) );
#182 = ORIENTED_EDGE ( 'NONE', *, *, #325, .F. ) ;
#183 = DIRECTION ( 'NONE',  ( 0.000000000000000000, 0.000000000000000000, 1.000000000000000000 ) ) ;
#184 = ORIENTED_EDGE ( 'NONE', *, *, #295, .T. ) ;
#185 = ORIENTED_EDGE ( 'NONE', *, *, #211, .F. ) ;
#186 = AXIS2_PLACEMENT_3D ( 'NONE', #40, #210, #310 ) ;
#187 = DIRECTION ( 'NONE',  ( -0.000000000000000000, -0.000000000000000000, -1.000000000000000000 ) ) ;
#188 = EDGE_LOOP ( 'NONE', ( #126, #235, #30, #242 ) ) ;
#189 = EDGE_CURVE ( 'NONE', #305, #52, #253, .T. ) ;
#190 = ORIENTED_EDGE ( 'NONE', *, *, #150, .F. ) ;
#191 = AXIS2_PLACEMENT_3D ( 'NONE', #223, #195, #64 ) ;
#192 = DIRECTION ( 'NONE',  ( 0.5000000000000001110, -0.8660254037844385966, 0.000000000000000000 ) ) ;
#193 = DIRECTION ( 'NONE',  ( -0.8660254037844383745, -0.5000000000000004441, 0.000000000000000000 ) ) ;
#194 = EDGE_CURVE ( 'NONE', #6, #105, #322, .T. ) ;
#195 = DIRECTION ( 'NONE',  ( 0.000000000000000000, -1.000000000000000000, 0.000000000000000000 ) ) ;
#196 = DIRECTION ( 'NONE',  ( 0.000000000000000000, 1.000000000000000000, 0.000000000000000000 ) ) ;
#197 = VECTOR ( 'NONE', #142, 39.37007874015748143 ) ;
#198 = CARTESIAN_POINT ( 'NONE',  ( 0.2170837012152992962, -8.629126648930641522E-21, 0.000000000000000000 ) ) ;
#199 = EDGE_CURVE ( 'NONE', #315, #4, #219, .T. ) ;
#200 = DIRECTION ( 'NONE',  ( 0.8660254037844385966, 0.5000000000000002220, -0.000000000000000000 ) ) ;
#201 = ORIENTED_EDGE ( 'NONE', *, *, #101, .T. ) ;
#202 = SURFACE_STYLE_FILL_AREA ( #177 ) ;
#203 = VECTOR ( 'NONE', #50, 39.37007874015748143 ) ;
#204 = FACE_BOUND ( 'NONE', #152, .T. ) ;
#205 = ORIENTED_EDGE ( 'NONE', *, *, #140, .F. ) ;
#206 = FACE_OUTER_BOUND ( 'NONE', #134, .T. ) ;
#207 = VERTEX_POINT ( 'NONE', #178 ) ;
#208 = VECTOR ( 'NONE', #1, 39.37007874015748143 ) ;
#209 = CARTESIAN_POINT ( 'NONE',  ( 0.1085418506076495232, 0.1880000000000000282, 0.1875000000000000278 ) ) ;
#210 = DIRECTION ( 'NONE',  ( 0.000000000000000000, 0.000000000000000000, 1.000000000000000000 ) ) ;
#211 = EDGE_CURVE ( 'NONE', #52, #82, #131, .T. ) ;
#212 = VERTEX_POINT ( 'NONE', #48 ) ;
#213 = CARTESIAN_POINT ( 'NONE',  ( 0.000000000000000000, 0.000000000000000000, 0.1875000000000000278 ) ) ;
#214 = VECTOR ( 'NONE', #293, 39.37007874015748143 ) ;
#215 = EDGE_CURVE ( 'NONE', #212, #207, #46, .T. ) ;
#216 = EDGE_LOOP ( 'NONE', ( #327, #266, #184, #47 ) ) ;
#217 = APPLICATION_PROTOCOL_DEFINITION ( 'draft international standard', 'automotive_design', 1998, #18 ) ;
#218 = FACE_OUTER_BOUND ( 'NONE', #81, .T. ) ;
#219 = LINE ( 'NONE', #89, #203 ) ;
#220 =( GEOMETRIC_REPRESENTATION_CONTEXT ( 3 ) GLOBAL_UNCERTAINTY_ASSIGNED_CONTEXT ( ( #17 ) ) GLOBAL_UNIT_ASSIGNED_CONTEXT ( ( #84, #285, #55 ) ) REPRESENTATION_CONTEXT ( 'NONE', 'WORKASPACE' ) );
#221 = CARTESIAN_POINT ( 'NONE',  ( 0.000000000000000000, 0.000000000000000000, 0.1875000000000000278 ) ) ;
#222 = ADVANCED_FACE ( 'NONE', ( #229 ), #77, .T. ) ;
#223 = CARTESIAN_POINT ( 'NONE',  ( 0.1085418506076495232, 0.1880000000000000282, 0.1875000000000000278 ) ) ;
#224 = DIRECTION ( 'NONE',  ( 1.000000000000000000, 0.000000000000000000, 0.000000000000000000 ) ) ;
#225 = UNCERTAINTY_MEASURE_WITH_UNIT (LENGTH_MEASURE( 1.000000000000000082E-05 ), #74, 'distance_accuracy_value', 'NONE');
#226 = CARTESIAN_POINT ( 'NONE',  ( -0.1085418506076496065, -0.1879999999999999727, 0.1875000000000000278 ) ) ;
#227 = AXIS2_PLACEMENT_3D ( 'NONE', #153, #228, #326 ) ;
#228 = DIRECTION ( 'NONE',  ( 0.8660254037844385966, -0.5000000000000002220, 0.000000000000000000 ) ) ;
#229 = FACE_OUTER_BOUND ( 'NONE', #78, .T. ) ;
#230 = PRODUCT ( 'am-3947a-188 375H x 188IN Spacer', 'am-3947a-188 375H x 188IN Spacer', '', ( #238 ) ) ;
#231 = PLANE ( 'NONE',  #112 ) ;
#232 = VECTOR ( 'NONE', #120, 39.37007874015748143 ) ;
#233 =( NAMED_UNIT ( * ) PLANE_ANGLE_UNIT ( ) SI_UNIT ( $, .RADIAN. ) );
#234 = ORIENTED_EDGE ( 'NONE', *, *, #65, .F. ) ;
#235 = ORIENTED_EDGE ( 'NONE', *, *, #20, .T. ) ;
#236 = ORIENTED_EDGE ( 'NONE', *, *, #291, .T. ) ;
#237 = ADVANCED_FACE ( 'NONE', ( #323 ), #231, .T. ) ;
#238 = PRODUCT_CONTEXT ( 'NONE', #18, 'mechanical' ) ;
#239 = ORIENTED_EDGE ( 'NONE', *, *, #189, .T. ) ;
#240 = LINE ( 'NONE', #166, #248 ) ;
#241 = EDGE_CURVE ( 'NONE', #82, #107, #299, .T. ) ;
#242 = ORIENTED_EDGE ( 'NONE', *, *, #101, .F. ) ;
#243 = PRESENTATION_LAYER_ASSIGNMENT (  '', '', ( #148 ) ) ;
#244 =( LENGTH_UNIT ( ) NAMED_UNIT ( * ) SI_UNIT ( $, .METRE. ) );
#245 = DIRECTION ( 'NONE',  ( -0.000000000000000000, -0.000000000000000000, -1.000000000000000000 ) ) ;
#246 = CYLINDRICAL_SURFACE ( 'NONE', #170, 0.3125000000000000000 ) ;
#247 = CARTESIAN_POINT ( 'NONE',  ( 0.3125000000000000000, 3.827021247335477694E-17, 0.1875000000000000278 ) ) ;
#248 = VECTOR ( 'NONE', #287, 39.37007874015748143 ) ;
#249 = MANIFOLD_SOLID_BREP ( 'Boss-Extrude1', #3 ) ;
#250 = PLANE ( 'NONE',  #16 ) ;
#251 = CARTESIAN_POINT ( 'NONE',  ( -0.3125000000000000000, 0.000000000000000000, 0.000000000000000000 ) ) ;
#252 = EDGE_CURVE ( 'NONE', #108, #103, #301, .T. ) ;
#253 = LINE ( 'NONE', #22, #232 ) ;
#254 = DIRECTION ( 'NONE',  ( 1.000000000000000000, 0.000000000000000000, 0.000000000000000000 ) ) ;
#255 = VECTOR ( 'NONE', #114, 39.37007874015748143 ) ;
#256 = FILL_AREA_STYLE_COLOUR ( '', #154 ) ;
#257 = ORIENTED_EDGE ( 'NONE', *, *, #274, .F. ) ;
#258 = SURFACE_SIDE_STYLE ('',( #202 ) ) ;
#259 = VECTOR ( 'NONE', #69, 39.37007874015748143 ) ;
#260 = CARTESIAN_POINT ( 'NONE',  ( 0.000000000000000000, 0.000000000000000000, 0.1875000000000000278 ) ) ;
#261 = CARTESIAN_POINT ( 'NONE',  ( 0.1085418506076495232, 0.1880000000000000282, 0.1875000000000000278 ) ) ;
#262 = ORIENTED_EDGE ( 'NONE', *, *, #60, .T. ) ;
#263 = AXIS2_PLACEMENT_3D ( 'NONE', #37, #183, #138 ) ;
#264 = CARTESIAN_POINT ( 'NONE',  ( -0.1085418506076496065, 0.1880000000000000282, 0.000000000000000000 ) ) ;
#265 = ORIENTED_EDGE ( 'NONE', *, *, #70, .F. ) ;
#266 = ORIENTED_EDGE ( 'NONE', *, *, #241, .F. ) ;
#267 = CIRCLE ( 'NONE', #121, 0.3125000000000000000 ) ;
#268 = PLANE ( 'NONE',  #186 ) ;
#269 = EDGE_CURVE ( 'NONE', #103, #108, #267, .T. ) ;
#270 = FACE_OUTER_BOUND ( 'NONE', #97, .T. ) ;
#271 = PLANE ( 'NONE',  #176 ) ;
#272 = VECTOR ( 'NONE', #245, 39.37007874015748143 ) ;
#273 = CARTESIAN_POINT ( 'NONE',  ( 0.1085418506076496203, -0.1879999999999999727, 0.1875000000000000278 ) ) ;
#274 = EDGE_CURVE ( 'NONE', #52, #4, #282, .T. ) ;
#275 = DIRECTION ( 'NONE',  ( -0.000000000000000000, -0.000000000000000000, -1.000000000000000000 ) ) ;
#276 = LINE ( 'NONE', #15, #56 ) ;
#277 = AXIS2_PLACEMENT_3D ( 'NONE', #80, #147, #254 ) ;
#278 = ORIENTED_EDGE ( 'NONE', *, *, #215, .F. ) ;
#279 = DIRECTION ( 'NONE',  ( -0.000000000000000000, -0.000000000000000000, -1.000000000000000000 ) ) ;
#280 = ORIENTED_EDGE ( 'NONE', *, *, #5, .T. ) ;
#281 =( NAMED_UNIT ( * ) SI_UNIT ( $, .STERADIAN. ) SOLID_ANGLE_UNIT ( ) );
#282 = LINE ( 'NONE', #156, #308 ) ;
#283 = ORIENTED_EDGE ( 'NONE', *, *, #60, .F. ) ;
#284 = ORIENTED_EDGE ( 'NONE', *, *, #70, .T. ) ;
#285 =( NAMED_UNIT ( * ) PLANE_ANGLE_UNIT ( ) SI_UNIT ( $, .RADIAN. ) );
#286 = VERTEX_POINT ( 'NONE', #102 ) ;
#287 = DIRECTION ( 'NONE',  ( -0.5000000000000004441, 0.8660254037844383745, 0.000000000000000000 ) ) ;
#288 = ADVANCED_FACE ( 'NONE', ( #206, #204 ), #304, .T. ) ;
#289 = ORIENTED_EDGE ( 'NONE', *, *, #241, .T. ) ;
#290 = CARTESIAN_POINT ( 'NONE',  ( 0.2170837012152992962, -8.629126648930641522E-21, 0.1875000000000000278 ) ) ;
#291 = EDGE_CURVE ( 'NONE', #132, #286, #23, .T. ) ;
#292 = FACE_OUTER_BOUND ( 'NONE', #139, .T. ) ;
#293 = DIRECTION ( 'NONE',  ( -0.5000000000000004441, 0.8660254037844383745, 0.000000000000000000 ) ) ;
#294 = LINE ( 'NONE', #143, #214 ) ;
#295 = EDGE_CURVE ( 'NONE', #82, #212, #24, .T. ) ;
#296 = AXIS2_PLACEMENT_3D ( 'NONE', #19, #193, #45 ) ;
#297 = FACE_OUTER_BOUND ( 'NONE', #188, .T. ) ;
#298 = CARTESIAN_POINT ( 'NONE',  ( -0.2170837012152992962, -6.822844948385385685E-21, 0.000000000000000000 ) ) ;
#299 = LINE ( 'NONE', #174, #85 ) ;
#300 = EDGE_CURVE ( 'NONE', #4, #107, #160, .T. ) ;
#301 = CIRCLE ( 'NONE', #79, 0.3125000000000000000 ) ;
#302 = VERTEX_POINT ( 'NONE', #10 ) ;
#303 = DIMENSIONAL_EXPONENTS ( 1.000000000000000000, 0.000000000000000000, 0.000000000000000000, 0.000000000000000000, 0.000000000000000000, 0.000000000000000000, 0.000000000000000000 ) ;
#304 = PLANE ( 'NONE',  #318 ) ;
#305 = VERTEX_POINT ( 'NONE', #209 ) ;
#306 = APPLICATION_CONTEXT ( 'automotive_design' ) ;
#307 = DIRECTION ( 'NONE',  ( 1.000000000000000000, 0.000000000000000000, -0.000000000000000000 ) ) ;
#308 = VECTOR ( 'NONE', #329, 39.37007874015748143 ) ;
#309 = CARTESIAN_POINT ( 'NONE',  ( -0.1085418506076496065, 0.1880000000000000282, 0.000000000000000000 ) ) ;
#310 = DIRECTION ( 'NONE',  ( 1.000000000000000000, 0.000000000000000000, -0.000000000000000000 ) ) ;
#311 = DIRECTION ( 'NONE',  ( 1.000000000000000000, 0.000000000000000000, 0.000000000000000000 ) ) ;
#312 = PRODUCT_RELATED_PRODUCT_CATEGORY ( 'part', '', ( #230 ) ) ;
#313 = ORIENTED_EDGE ( 'NONE', *, *, #124, .F. ) ;
#314 = VECTOR ( 'NONE', #224, 39.37007874015748143 ) ;
#315 = VERTEX_POINT ( 'NONE', #157 ) ;
#316 = FACE_BOUND ( 'NONE', #75, .T. ) ;
#317 = FACE_OUTER_BOUND ( 'NONE', #110, .T. ) ;
#318 = AXIS2_PLACEMENT_3D ( 'NONE', #260, #31, #307 ) ;
#319 = PLANE ( 'NONE',  #296 ) ;
#320 = CARTESIAN_POINT ( 'NONE',  ( -0.2170837012152992962, -6.822844948385385685E-21, 0.1875000000000000278 ) ) ;
#321 = DIRECTION ( 'NONE',  ( -0.000000000000000000, -0.000000000000000000, -1.000000000000000000 ) ) ;
#322 = LINE ( 'NONE', #95, #68 ) ;
#323 = FACE_OUTER_BOUND ( 'NONE', #216, .T. ) ;
#324 = VERTEX_POINT ( 'NONE', #158 ) ;
#325 = EDGE_CURVE ( 'NONE', #305, #315, #163, .T. ) ;
#326 = DIRECTION ( 'NONE',  ( 0.5000000000000002220, 0.8660254037844385966, 0.000000000000000000 ) ) ;
#327 = ORIENTED_EDGE ( 'NONE', *, *, #130, .F. ) ;
#328 = VECTOR ( 'NONE', #116, 39.37007874015748143 ) ;
#329 = DIRECTION ( 'NONE',  ( -0.000000000000000000, -0.000000000000000000, -1.000000000000000000 ) ) ;
#330 = PRESENTATION_STYLE_ASSIGNMENT (( #25 ) ) ;
#331 = ORIENTED_EDGE ( 'NONE', *, *, #140, .T. ) ;
#332 = CARTESIAN_POINT ( 'NONE',  ( 0.000000000000000000, 0.000000000000000000, 0.000000000000000000 ) ) ;
#333 = ORIENTED_EDGE ( 'NONE', *, *, #36, .T. ) ;
ENDSEC;
END-ISO-10303-21;
